CARA MAIN MUSIK METAL

akord akordnya  melibatkan gerakan yang tidak biasa, seperti E5 untuk F5 (1 sampai b2) atau E5 untuk BB5 (1 sampai b5) atau E5 D # 5 (1 sampai 7). Gerakan-gerakan ini diilustrasikan dalam contoh 1 bro ..  ok  langsung aja

#1

E5 F5 E5 BB5 D # 5 E5
E |———————————————— ————|
B |———————————————— ————|
G |———————————————— ————|
D |——————– 3 ——– 8 —————— ————|
A | -2-2-2-2-3 —– 2 —- 1 ——– 6 — 2 ————– ————|
E | -0-0-0-0-1 —– 0 —————– 0 ————– ————|

Jenis gerakan chord harus terdengar harmoni jika Anda bermain banyak memainkan musik metal . Skala E berkurang sering digunakan oleh pemain seperti Trey Azagthoth dan Kerry King (dari Morbid Angel dan Slayer masing-masing) dan memiliki suara yang besar karena menekankan Bb F (b2 dan b5)

# 2:
E |————————————- 9-10-12 —— —————|
B |—————————– 9-11-12 ————– —————|
G |——————— 9-10-12 ———————- —————|
D |———– 8-9-11-12 —————————— —————|
A | -7-8-10-11 —————————————- —————|
E |———————————————— —————–|

Skala besar lainnya adalah-Phrygian dominan yang, jika Anda tertarik adalah modus 5 dari skala minor harmonik. The-Phrygian dominan sering digunakan oleh Joe Satriani, dan Eric Hoffman dari Deicide

# 3:
E |——————————————- 12-13-16 -17-19-20-22-24 – |
B |———————————- 12-13-15 ——— —————-|
G |—————————- 13-14———– —— —————–|
D |——————- 12-14-15 ———————— —————-|
A |———- 12-14-15 ——————————— —————-|
E | -12-13-16 —————————————— —————-|

Cobalah bermain canggih .. tau kn cara main cangggih kaya gi mana ???  klw ngga tau aku juga ngga tau …. hehhe :p  dari skala atas lagu favoritMetal mu bro …..   dan kemungkinan Anda bisa datang dengan sesuatu yang cocok.  Ok …  sampai sini aja ya …  Smoga sukses …  😀

 

ROCK ON !

 

My Facebook

siapa tau ada yang berminat sharing kan boleh bleh aja ….  Cz aku juga masih mau blajar banyak bro ….

APA YANG DI MAKSUD DENGAN TEKNIK LEGATO

Pelajaran ini berisi berbagai LICK  dan latihan yang dirancang untuk mengembangkan teknik Legato seseorang.

Legato bisa  digambarkan sebagai: “halus, dan terhubung”. Ini dapat diperoleh  panjang “melantur” berjalan

Pada gitar, lari Legato,  dapat dicapai dengan menjalankan dengan hammer-ons, and/or pull-offs,  Dengan latihan berikut, mulailah pelan pelan, dan secara bertahap meningkatkan tempo. Saya sarankan menggunakan metronom.

LICK pertama

Untuk mendapatkan independensi dan kecepatan antara jari, cobalah LICk  ini.

e |-1h2 ———————————————- ————-|
B |-1h2 ———————————————- ————-|
G |-1h2 ———————————————- ————-|
D |-1h2 ———————————————- ————-|
A |-1h2 ————————————————————|
E |-1h2 ———————————————- ————-|

Play ini dengan jari telunjuk Anda pada fret  “1”, dan kedua jari Anda pada fret “2”.

Play ini lagi, tetapi menggunakan kedua jari Anda di fret “1”, dan jari ketiga Anda (jari manis) pada fret “2”.

Play ini lagi, tetapi sekarang menggunakan jari ketiga Anda (jari manis) untuk  fret “1”, dan pinky Anda untuk fret “2”.

Ini mungkin sulit pada awalnya, namun dengan praktek akan merasa lebih alami.

teknik SPEED DAN SWEEP PICKING

TEKNIK spped

nggga usah panjang lebar langsung praktek aja …

e|-12-14-15-14-12-14-17-14-12-14-15-14-12-14-17-14-12-14-15-14-12————| B|—————————————————————15-14-12-14-| G|—————————————————————————| D|—————————————————————————| A|—————————————————————————| E|—————————————————————————| e|—-12-14-15-14-12—————-12-14-15-14-12-14-17-14-12-14-15-14-12-14| B|-15—————-15-14-12-14-15——————————————| G|—————————————————————————| D|—————————————————————————| A|—————————————————————————| E|—————————————————————————| e|-17-14-12-14-15-14-12—————-12-14-15-14-12————————| B|———————-15-14-12-14-15—————-15-14-12~~~————| G|—————————————————————————| D|—————————————————————————| A|—————————————————————————| E|—————————————————————————|

TEKNIK SWEEP



e|----------------12-17p12---------------------------12-17p12----------------|
B|-------------13----------13---------------------13---------13--------------|
G|----------14----------------14---------------14--------------14------------|
D|-------14---------------------14----------14-------------------14----------|
A|-12h15---------------------------15-12h15------------------------15--------|
E|---------------------------------------------------------------------------|



e|----------------9-12p9-----------------9-12p9------------------------------|
B|-------------10--------10------------10------10----------------------------|
G|-----------9-------------9----------9----------9---------------------------|
D|--------10----------------10------10------------10-------------------------|
A|-----11---------------------11--11----------------11-----------------------|
E|--12--------------------------12--------------------12---------------------|
 
e|---------------------------------------------------------------------------|
B|-------17-------------15--------------13-----------------------------------|
G|-----16--16---------14--14----------12--12---------------------------------|
D|---17------17-----15------15------13------13-------------------------------|
A|-19----------19-17----------17-15-----------15~----------------------------|
E|---------------------------------------------------------------------------|




e|---2-3--5p3p2t7p5p3p2t7p5p3p2t7p5p3p2t7p5p3p2------------------------------|
B|--3------------------------------------------3-3/5t9p7p5-------------------|
G|-2--------------------------------------------2---------5------------8h11--|
D|---------------------------------------------------------6-------7h10------|
A|----------------------------------------------------------7---6h9----------|
E|-----------------------------------------------------------5h8-------------|
 
e|-------------------7-10p7---7-10p7---7-10p7---7-10/15p12------12-15p12-----|
B|-10p7-------------8------8-8------8-8------8-8----------13--13--------13---|
G|-----8---------7h9--------9--------9--------9-------------14------------14-|
D|------7-----7h9------------------------------------------------------------|
A|-------9p7h9---------------------------------------------------------------|
E|---------------------------------------------------------------------------|
 
e|--12-15/17p14------14-17p14------14-17p14------14-17p14/12-----------------|
B|13-----------15--15--------15--15--------15--15-----------13---------------|
G|---------------16------------16------------16---------------14-------------|
D|--------------------------------------------------------------14--------14-|
A|----------------------------------------------------------------15-12h15---|
E|---------------------------------------------------------------------------|
 
e|-----12-17p12--------------------12-15p12--------------------12-17-15-12---|
B|---13--------13----------------13--------13----------------13-----------15-|
G|-14------------14------------14------------14------------14----------------|
D|-----------------14--------14----------------14--------14------------------|
A|-------------------15-12h15--------------------15-12h15--------------------|
E|---------------------------------------------------------------------------|
 
e|--15-12-10-----------------------------------------------------------------|
B|12--------12-10-14-12-10---------------------------------------------------|
G|------------------------12-10-14-12-10-------------------------------------|
D|--------------------------------------12-10-14-12-10-----------------------|
A|----------------------------------------------------12-10-14-12-10---------|
E|------------------------------------------------------------------12-10-14-|
 
e|----------------10-15p10------10-14p10------10-13p10------12p10------10-12-|
B|--------------11--------11--11--------11--11--------11--11-----11--11------|
G|------------12------------12------------12------------12---------12--------|
D|----------12---------------------------------------------------------------|
A|--------12-----------------------------------------------------------------|
E|12-10h14-------------------------------------------------------------------|
 
e|/17p14------14-18p14------14-19p14------14-18p14------14-17p14/12----------|
B|------15--15--------15--15--------15--15--------15--15-----------13--------|
G|--------16------------16------------16------------16---------------14------|
D|---------------------------------------------------------------------14----|
A|-----------------------------------------------------------------------15--|
E|---------------------------------------------------------------------------|
 
e|-----------------------17-19-21-22-22p17--------------------15-19p15-------|
B|------------12-17p15-19-----------------18----------------16--------16-----|
G|----------13------------------------------17------------16------------17---|
D|--------14----------------------------------19--------16----------------17-|
A|------14--------------------------------------17/15h17---------------------|
E|-12h15---------------------------------------------------------------------|
 
e|------------------12-17p12-------------------------------------------------|
B|----------------13--------13--------------------------17p15------15p13-----|
G|--------------14------------14-------------------15h18-----16---------14---|
D|------------14----------------14------------14h17------------15---------13-|
A|-18-15/12h15--------------------15-----13h16-------------------17----------|
E|----------------------------------12h15------------------------------------|
 
e|---------------------------------------------------------------------------|
B|---------------------------------------------------------------------------|
G|---------------------------------------------------------------------------|
D|------2--------------------------------------------------------------------|
A|-15---2--------------------------------------------------------------------|
E|---12-0------------------------------------------------------------------



kesulitan hanya awal


			

Arpegio Tapping \m/

Arpeggio tapping adalah teknik yang sangat berguna. Mereka memungkinkan Anda untuk menutupi banyak ruang pada papan fret, dan membuat suara yang sangat mirip dengan sweep, tapi kamu bisa bermain oktaf lebih banyak dari pada sweep  sederhana. Juga terlihat lebih bercahaya. Hal pertama yang Anda harus belajar adalah untuk menghilangkan senar Anda tidak bermain. Ini mungkin merupakan bagian tersulit dari seluruh hal (ini jelas memberi saya yang paling masalah) dan ada bukanlah cara yang baik untuk mengajarkannya. Saya menggunakan gemuk bagian dari memetik kelapa di tangan untuk menghilangkan string yang lebih rendah, dan jari-jemari tangan mencela saya untuk menghilangkan string yang lebih tinggi. Tangan Anda tetap dekat dengan senar. Jika Anda tidak akan repot-repot untuk belajar melakukan bagian ini, kemudian mengikat kaus kaki di sekeliling leher dekat fret pertama untuk meredam senar.

Hanya beberapa tips untuk membantu Anda memahami pelajaran ini: ini adalah jelas tab, sehingga Anda akan melihat nomor fret pada senar mereka berada. Aku hanya menunjukkan string yang digunakan dan yang di antara, untuk menghemat waktu, jadi pastikan untuk memeriksa string mereka berada. Di bawah tab adalah petunjuk untuk cara bermain mereka, misalnya – Tekan, palu on, pull off dan yang lainnya (h = hammer on; p = tarik, t = tekan; ^ = memilih). Palu dan menarik harus dilakukan biasanya dengan Anda mengeluh tangan. Keran harus dilakukan dengan memetik tangan. Kebanyakan dari arpeggio ini dimulai dengan palu di dari nol (opsional, Anda dapat memilih nada pertama). Multiple keran berturut-turut berarti Anda akan harus menggunakan beberapa jari di tangan memetik Anda. Arpeggio yang paling rumit dalam pelajaran ini memerlukan tiga jari di tangan memetik.

Sekarang Untuk Beberapa Actual arpeggio.

Pertama kita memiliki satu string arpeggio. Kebanyakan orang yang akan melihat pelajaran ini mungkin sepenuhnya mampu hal semacam ini, tapi saya pikir lebih baik mulai dari awal.

Coba ini (C mayor).

e—5—–8—-12—-8—5—
h         h       t       p     p

next \m/

e-–0—5—8—12—8—5—0—

^    h   h     t     p   p   p

simple kan 🙂

ini nich versi temanya

e—0—5—8—12—8—5—0—5—8—13—8—5—0—

^      h    h  t       p   p    p   h   h    t      p   p   p

Anda juga dapat memainkan bentuk serupa yang lebih tinggi (masih C Mayor)

e-12-15-19-15-12-15-20-15-12 –

h    h   h    t   t    p   p   p    p


Jika Anda tidak mampu latihan sederhana ini, Anda mungkin harus mencari pelajaran ketukan dasar terlebih dahulu, dan kemudian kembali ke sini. Aku tidak akan mengajarkan dasar-dasar ketukan di sini.

String Skipping

Langkah besar berikutnya dalam perjalanan menuju kebesaran: melompat tali.

Untuk memulai, coba bermain ini (G Major)

 e ----------- 12-15-19-15-12 ---------- B-12-15-19 ------------------ 19-15-12 - h h h h t t p t p p p

Tidak benar-benar string skipping (atau arpeggio yang lain), tapi akan memberikan Anda berlatih melompat antara string, dan kedengarannya baik. Ingatlah untuk menghilangkan string yang tidak diinginkan untuk mencegah kebisingan. Dasar teknik penyadapan masih digunakan di sini, tapi Anda hanya melompat antara string. Mulai lambat dan bekerja sampai dengan kecepatan. Kecepatan yang baik untuk mencapai enam belas tidak akan kembar tiga di 120 bpm.

Sekali Anda terbiasa untuk itu, coba yang ini (F Mayor)

 e ------------------ 12-15 - 20 - 15-12 ------------------ b ------------------------------------------------- ----- g - 12 - 15-19 ---------------------------- 19-15-12 ------ h h h h t t p t p p p

Dan sekarang ... ! Langkah selanjutnya adalah menggunakan string lainnya. Jadi sekarang kita akan menggunakan tiga senar. Cobalah (D minor) e ------------------- 6-9-12-9-6 ------------------ b ----------------------------------------------- g ---------- 6-9-12 --------------- 12-9-6 ---------- d ----------------------------------------------- a -5-8-12 --------------------------------- 12-8-5 - t h h h h h t t p h p t t p p p p

 Ini mungkin memerlukan beberapa latihan. Tapi kalau Anda dapat menangani dua stringers di atas maka seharusnya ini tidak memberikan terlalu banyak masalah. Hanya ingatlah untuk benar bisu senar. Dan juga ... MULAI LAMBAT DAN BEKERJA UP TO SPEED. Hal ini sangat penting. Anda akan sangat ceroboh jika Anda bahkan dapat sama sekali jika Anda tidak mulai lambat. Here's another (C mayor / A minor)

 e --------------------------- 10-13-17-13-10 ------------- ------------ b ------------------------------------------------- ----------------- g ------------------------------------------------- ----------------- d -------------- 12-15-19 ----------------------- 19-15-12 -- ----------- a ------------------------------------------------- ----------------- E -10-13-17 ------------------------------------------- ----- 17-13-10 -- H h t h h t h h t p p t p p t p p

 Itu adalah salah satu favorit pribadi saya. Aku hanya suka cara kedengarannya. Juga coba yang ini (C mayor)

e ------------------ 12-15 - 19 - 15-12 ----------------- b ------------------------------------------------- ---- g ------------------------------------------------- ---- d ------------------------------------------------- ---- a ------------ ------- 19 ---------------------------- 19 -- E - 12-15 ------------------------------------- 15-12 -- H h h ht t p h p t p Yang satu agak sedikit aneh, dan mungkin kelihatan seperti beberapa catatan yang hilang dari tengah (ada sebenarnya), tapi jika Anda dapat bermain cukup cepat itu bodoh ke telinga mendengar lebih banyak catatan daripada yang benar-benar ada dan suara seperti besar, cepat menyapu. Langkah berikutnya adalah untuk mendapatkan jari menekan lain pada tindakan. Ini pasti akan memakan membiasakan diri. Jadi kita akan mulai kembali dari awal, dengan satu tali ide. Pertama (C mayor) e-5-8-12-13-12-8-5 - h t t t h h h dan e-12-15-19-20-19-15-12 h t t h p p p

Ini akan membuat Anda menekan dengan dua jari. Persis seperti memalu dan menarik tapi dengan tangan memetik Anda. Yang pertama pull off sebenarnya merupakan tarik dengan tangan menekan. Flick kedua jari ke bawah menjauh dari leher sambil jari pertama tertanam kuat di 19 fret, lalu lanjutkan untuk menarik lepas seperti biasa untuk mengakhiri pola. Kemudian coba yang ini (G mayor)

e 19 ---------- ------------ b - 12-15-19 ----- 19-15-12 - h t t t h p p

Setelah Anda tekan-19 pada string b, gunakan jari di sebelah tangan untuk memilih tekan 19 tentang merangkai berikutnya. mengangkat jari menekan pertama sehingga Anda tidak memainkan akord yang Anda tekan catatan berikutnya, lalu mengangkat jari seperti yang Anda tekan lagi dengan yang pertama. Ini seperti gerakan bergulir. Anda semacam roll lancar dari satu jari ke depan, dan kembali. Coba ini (C mayor / A minor) e ----------------- 8-12-17-12-8 ------------------ b ------------------------------------------------ g 14 ------------- 14 ------------------- ------------ d - 7-10-14 --------------------------- 14-10-7 ----- h h h h ttt t t p p p p Here's another (F mayor) b ----------------- 11-15-20-15-11 ----------------- g ------------------------------------------------ d ------------- ----------- 17 -------------------- 17 a - 10-13-17 ---------------------------- 17-13-10 -- h h h h t t t t t p p p p Ini menggabungkan string skipping dan mengetuk-ngetuk dengan beberapa pick-jari tangan. Hanya tekan dua catatan, melompat ke string berikutnya (sementara hati-hati mematikan string sebelumnya) tekan yang biasanya, dan kemudian kembali turun, menekan dua catatan dan menarik lepas seperti biasa. Sekarang jika Anda bisa melakukan yang terakhir dua dan tiga string arpeggio lebih jauh atas, maka Anda cukup banyak memiliki teknik turun. Tapi hanya untuk bersenang-senang, aku punya tiga lebih untuk Anda. Jika Anda dapat menarik off ini, menganggap diri Anda awesome. (C Mayor) e --------------------------------- 17 --------------- ------------ b ----------------------------- 17 ----- 17 ------------- ----------- g ----------------- 12-14-17 ------------- 17-14-12 --------- ------- d ------------------------------------------------- ------------- a ------------- 19 --------------------------------- 19 - ----------- E -12-15-19 ------------------------------------------- 19-15-12 -- H h t t h h t t t t t p p t t p (C mayor) e --------------------------------- 19 --------------- ------------ b ----------------------------- 17 ----- 17 ------------- ----------- g ----------------- 12-14-17 ------------- 17-14-12 --------- ------- d ------------------------------------------------- ------------- a ------------- 19 -------------------------------- 19 -- ----------- E-12-15-19 ------------------------------------------- 19-15-12 -- H h t h h t t t t t p p t t p p Kedua sangat mirip. Dan sekarang untuk ... THE BIG ONE. Mencakup empat oktaf. Aku sebenarnya tidak bisa memainkan satu ini (karena saya hanya 21 frets pada gitar dan kanan saya pinky tidak membungkuk dengan benar) tapi saya pikir akan menyenangkan untuk dimasukkan ke dalam pula, untuk melihat apakah Anda bisa mengatasinya. (E Minor) e ---------------------------------------------- 19-24 -19 ---------------- b ------------------------------------------- 20 ----- ---- 20----------- --- g ----------------------------- 16-9-12-16-21 ----------- ---- 21-16-------- --------------------- d 9-14-17 ----------------------- ------------------- a ------------- 14-7-10 ------------------------------- ------------------- E-0-3-7-12-15 --------------------------------------- ------------------- ^ H h t t t p h h t t t p h t t t t t t t t t e ------------------------------------------------- b ------------------------------------------------- g-12-9-16 ----------------------------------------- d ----------- 17-14-9 ------------------------------- a --------------------- 10-7-14 --------------------- E ------------------------------- 15-12-7-3-0 ------- P p p p t t t t h p p p p p Akhirnya, saya akan memberikan beberapa arpegios dan lainnya over-the-top teknik penyadapan untuk kesenangan Anda. (A minor) ----------------- b 4-7-12-7-4 ------------------ g ------------------------------------------------ d 14 --------------- 14 ------------- --------------- a - 7-11-14 ------------------------- 14-11-7 ----- h h h h t t t t t p p p p (Utama) b ----------- 14-17 - 21 - 17-14 --------------- g --------------------------------------------- d - 12-16 -------------------------- 16-12 ------ h h h h h t p p p topi satu memiliki hanya 2 catatan pada string rendah. Sehingga Anda dapat memainkannya lebih cepat. (G minor / A # minor) e ------------------------- 11-14-17-14-11 --------------- --------- b ------------------------------------------------- -------------------- g ------------- 11-14-17 --------------------- 17-14-11 ----- ---------- d ------------------------------------------------- -------------------- a-10-13-17 ------------------------------------------- - 17-13-10 --- h h t h h t h h t p p t p p t p p (C mayor) e ----------------- 12-15-19-15-12 ------------------ b ------------------------------------------------- ---- g ------------------------------------------------- ----- d 19 --------------------- ------------- 19 ------------- a --------- --------- 19 ----------------------------- 19 E-12-15 ------------------------------------ 15-12 -- h h h h t t t t t p h p (G mayor) e ------------------ 12-15-19-15-12 --------------------- b 19 --------------------- -------------- 19 ------------ ---- g - 12-15-19 ----------------------------- 19-15-12 ----- h h h h t t t t t p p p p Coba meredakan senar dekat memetik kacang dengan tangan Anda, dan mengetuk-ngetuk keluar arpeggio ini dengan tangan resah, dengan gerakan tangan yang sama seperti menyapu (tetapi tanpa memungut tentu saja) (G mayor) e - 19-15 ------------- 15-17-14 --------------- 14-15-12 ------ ------- 12-15 -- b 17 ---------- ----- 15 ----- 17 ------------- 15 ------------ -13 ----- 13---------- g -------------- ------------------- 14 -------------- 16 ------- 12----------- ---


SELAMAT MENCOBA 🙂

METAL NEVER DIE \m/

\m/ ARPEGIO DAN AKORD DIATONIK \m/

skala derajat Anda telah memberikan “akord kualitas.” Bagaimana kita menentukan apa yang skala akord derajat memiliki apa kualitas? Nah, untuk sepenuhnya memahami hal ini, seseorang harus memahami dasar-dasar konstruksi akord.

Yang paling mendasar disuarakan sepenuhnya akord disebut ‘triad. ” Hal ini karena mereka terdiri dari tiga catatan. Masuk akal, kan? Triad kita kita peroleh dari catatan pertama, catatan ketiga, dan catatan kelima apa pun skala kita.

Jadi, dalam G Mayor

G A B C D E F # G

1 3 5

Jadi  chord itu terdiri dari catatan G, B dan D, yang merupakan dasar ‘G Mayor’ akord. Jadi dari A Dorian (ii dalam G Mayor, karena A Dorian hanya memiliki satu tajam, seperti G Mayor tidak, dan A adalah tingkat kedua G Mayor), kita peroleh akord kami dari A, C dan E, yang membuat akord minor .

Untuk referensi, catatan akar suatu akord, catatan yang pertama dimulai dengan membangun akord Anda, adalah dirujuk sebagai root. Catatan kedua anda mengambil dari skala untuk menambahkan Anda ke akord adalah dirujuk sebagai ‘ketiga’ dari akord, dan yang ketiga catatan yang mengambil dari skala untuk menambah akord adalah direferensikan sebagai ‘kelima’ dari akord.

Sekarang mengapa bahwa ketika Anda mengambil akord dari modus Ionia, Anda mendapatkan besar, dan ketika Anda mengambil akord dari modus Dorian, satu adalah satu mayor dan minor?

Untuk membuat akord mayor, Anda harus memiliki 3 besar (Dua seluruh langkah-langkah, G ke B, misalnya) dari root (nada pertama) dan ketiga skala nada, sementara kecil memiliki 3 (satu setengah langkah, seperti B ke D) dari ketiga catatan ke catatan kelima dari skala.

Untuk membuat akord mayor minor, Anda hanya menurunkan ketiga oleh SATU setengah langkah. Menurunkannya lagi Anda akan mendapatkan sesuatu yang sama sekali berbeda. Jadi, untuk mendapatkan chord G minor, Anda akan mengambil akord mayor, GBD, dan rata ketiga, memberikan Anda G Bb D.

Jadi dalam akord minor, dari akar yang ketiga kecil Anda memiliki 3 dari akar yang ketiga, dan 3 besar dari yang ketiga untuk kelima.

Jadi, ketika Anda mengambil yang pertama, ketiga dan kelima catatan dari skala Dorian, Anda mendapatkan 3 kecil dari akar yang ketiga, dan 3 besar dari yang ketiga untuk kelima.

Sekarang apa yang terjadi ketika Anda memiliki akord minor dan Anda datar yang kelima juga? Hal ini menghasilkan 3 kecil dari akar ke ketiga, dan 3 kecil lain dari yang ketiga untuk kelima. Ini adalah akord berkurang, dan kunci utama, itu hanya terjadi pada skala tujuh derajat.

Jadi dalam kunci mayor, akord kualitas adalah sebagai berikut.

M-Mayor

m-minor

o-Hilangnya

Aku ii iii IV V vi vii saya

M m m M M m o M

Ini berarti bahwa dalam G Mayor, yang arpeggio Anda dapat bermain adalah

G Mayor

A Minor

B Minor

C Mayor

D Mayor

E Minor

F # Hilangnya

Sebelum melanjutkan, menghafal umum interval 3! Mereka adalah: FACEGBDFAC … dll dll

Ini adalah kunci Anda untuk segera penamaan ketiga catatan dari setiap tiga serangkai, karena di APAPUN ‘F’ triad, catatan alam (tidak ada aksidensi) akan F, A, dan C. Jadi, yang harus Anda lakukan adalah menambahkan dalam aksidensi untuk membuatnya kecil atau berkurang, atau apa-yang-kau.

Sekarang, selama Anda memiliki tiga not yang membentuk akord Anda, Anda dapat memutar mereka dalam setiap “urutan” yang Anda suka. Bagaimana jika Anda mengambil tiga-catatan yang normal G chord dan memindahkan G naik satu oktaf? Maka Anda akan punya ‘BDG. ” Kedengarannya agak berbeda, tapi masih chord G Mayor. Ini disebut ‘pembalik’ akord, latihan mengatur catatan dari akord untuk memberikan hal yang berbeda “efek aural,” sebagai guru teori musik (terpisah dari guru gitar saya) menyimpannya. Bagaimana jika, dari pertama G Mayor inversi (BDG) Anda memindahkan B naik satu oktaf? Maka Anda akan punya ‘DGB. ” Yang akan disebut ‘pembalikan kedua. ”

Sekarang, menurut teori saya guru, satu-satunya aturan keras dan cepat untuk inversi Anda adalah apa yang diperhatikan adalah dalam ‘bass,’ apa yang diketahui memiliki nada terendah akord. Ketika catatan akar di bass, maka dalam ‘posisi root. ” Hal ini tidak terbalik.

Ketika ketiga dari akord adalah di bass, itu adalah pembalikan pertama. Ketika kelima dari akord adalah di bass, maka pada pembalikan kedua.

Jadi, jika Anda bermain-main sedikit, dan memainkan akord Anda, dalam urutan pitch, GDB, Anda akan tetap berada di posisi root. Sekali lagi, semuanya memberikan kontribusi untuk ‘pendengaran’ efek. Pada titik ini, dari hanya nada mayor, kita memiliki akses ke sejumlah besar akord possibilites berbeda-bijaksana. Bukan hanya itu, tapi kami telah arpeggio akord ini yang untuk solo dengan atau membuat garis melodi yang didasarkan dari mereka.

Aku menyesal untuk memberitahukan pembaca bahwa saya tidak dapat menyediakan bagan visual triad bahwa guru gitar saya disajikan kepada saya. Kertas itu sendiri menyediakan sekitar 12 cara untuk memainkan A Mayor triad, dan itu adalah JUST MAYOR! Hal ini menunjukkan bahwa ada juga 12 cara untuk memainkan Chord A Minor, akord A Hilangnya … dan THAT’S JUST AN A CHORD! Jadi, bayangkan berapa banyak pilihan Anda dengan semua 12 catatan dari musik alfabet? Tiga akord dengan 12 jenis bentuk yang berbeda pada leher masing-masing adalah 36 pilihan, 12 kali catatan dalam alfabet musik, adalah empat hundred dan thirty-dua akord.

Empat ratus tiga puluh dua. Dan yang menakjubkan adalah setelah Anda mengenali dua belas ‘cara’ untuk memutar salah satu akord, Anda dapat memutar semua jenis akord yang bergerak hanya dengan bentuk!

Saya pikir saat ini, harus mulai menjadi jelas mengapa saya mengatakan bahwa hampir semua musik itu / adalah berasal dari Skala Mayor. Dan apakah Anda percaya kalau aku mengatakan bahwa kita sudah hampir tidak menyentuh permukaan? Kami masih memiliki seluruh dunia lain suara untuk mengeksplorasi: Skala Minor!

Aku tahu aku berkata aku akan menutupi Skala Minor dalam satu ini, bagaimanapun, aku berpikir bahwa aku akan meledakkan otak manusia jika saya mendapatkan terlalu banyak teori lebih jauh ke hal-hal untuk satu pelajaran. Jadi pelajaran berikutnya akan memperluas pada Skala Minor.

Saya ingin meminta orang teori lebih maju pertanyaan singkat. Menjadi seperti artikel-artikel ini dimaksudkan untuk berhubungan dengan logam, harus saya ganggu dengan ketujuh mengajar chords? Saya tidak berpikir bahwa di luar arpeggio pernah kulihat ketujuh akord digunakan dalam konteks logam. Komentar jika Anda pikir aku harus, karena pada titik ini, aku tidak berencana itu.

Thanks for reading!

SALAM METAL  \m/ \m/ \m/ \m/ \m/ \m/ \m/ \m/ !!!!!!!!!!!!!!!!!!!!!!!

BANTAI MUSIK SAYUR !!!!!!!!!!

OK !!!! 

TEKNIK MEMAINKAN ALIRAN MUSIK METAL \m/

METAL \m/ \m/ \m/ !!!!!  Mungkin salah satu yang paling rumit dan kompleks bentuk bermain gitar kecuali mungkin Neo-Klasik …..(Tidak yakin dengan apa yang saya maksud Lihat permainan Yngwie Malmsteen, I think its spelt like that).

Kebanyakan orang hanya bermain sangat keras dan cepat. Ada 5 Teknik Utama Anda harus dapat lakukan untuk bermain Metal dengan benar. Saya akan menjelaskannya dengan ilmu yang  sedikit saya tahu ,

1. Palm Mutes
2. Pinch Harmonics
3. Gallop and Tremelo Picking
4. Fingertapping
5. Sweep Picking or ‘Rakeing’

Palm mutes , pinch harmonics dan gallop and tremolo picking itu adalah aspek-aspek lebih penting untuk irama metal  jadi aku akan lebih focus menjelaskan di situ , okay ….

PALM MUTE

Mungkin yang paling mudah dari 5 teknik adalah teknik palm mute, palm mute  adalah ketika anda  memetik senar saat Anda bermain denagan menggunakan telapak tanganyang di tempelkan pada BRIDGE.dan menghasilkan bunyi yang berbeda sibanding anda memetik biasa .

Kunci

. – Palm Mute

Setelah Anda dapat bermain dengan lancar ini maka anda dapat melanjutkan ke beberapa hal lebih keras. Ini merupakan ekstrak dari Slipknot – Psikososial. yang tidak terlalu sulit, tetapi ini akan membantu untuk bermain normal di palm mute dalam riff yang sama. Psikososial juga di tuning yang sama sekali berbeda, jadi aku akan berikan Tab  :

e ||————————————||
B ||————————————||
G ||————————————||
D ||————————————||
A | | – 6-0-0-5-0-0-5S6 – 6-0-0-5-0-0-5S6 – | |
E | | – 6-0-0-5-0-0-5S6 – 6-0-0-5-0-0-5S6 – | |
. . . . . . . .

H – Hammer-on / Pinch harmonic

Pinch harmonic adalah  salah satu teknik lebih keras di pelajaran ini, dan mungkin lama untuk sempurna. Pinch harmonic atau ‘Squelies’ cukup rumit untuk di praktekakan jadi buat kawan kawan metal  jangan khawatir jika Anda tidakbisa memepraktekannya langsung . Itu butuh waktu.
Cara utama untuk melakukan Pinch harmonic adalah i menyeret ibu jari Anda di belakang dan memilih  plectrum dan sentuhan ringan string. Cara lain adalah dengan sentuhan ringan senar dengan telapak tangan setelah memetik senar yang telah telah dipetik .

Jadi memungkinkan meletakkan dua teknik bersama-sama, dan mencoba dan memainkannya .

e ||———————————————||
B ||———————————————||
G ||———————————————||
D | | – 2-2 – 2-2 – 2-2 – 2-2 —– 2-2 – 2-2 – 2-2 – 2-2 – | |
A | | – 2-2 – 2-2 – 2-2 – 2-2 – 3 *- 2-2 – 2-2 – 2-2 – 2-2 – | |
E | | – 0-0 – 0-0 – 0-0 – 0-0 —– 0-0 – 0-0 – 0-0 – 0-0 – | |
. . . . . . . . . . . . . . . .

benar-benar tidak ada hal lain yang khusus dapat Anda lakukan dengan hal ini, itu hanya teknik yang baik untukkalian  tahu dan itu benar-benar menghidupkan lagu.

Finger tapping

Jika Anda ingin belajar tentang ini secara mendalam kemudian memeriksa pelajaran di atasnya. Konsep utama adalah string mencolok dengan jari-jari anda bukannya memetik string

contoh  solo Metallica – Satu.

T T T T
e | | – 19p12h15-19p12h15-19p12h15-19p12h15 – | |
B ||—————————————||
G ||—————————————||

T T T T
e | | – 20p12h15-20p12h15-20p12h15-20p12h15 – | |
B ||—————————————||
G ||—————————————||

T T T T
e ||—————————————||
B | | – 19p12h15-19p12h15-19p12h15-19p12h15 – | |
G ||—————————————||

T T T T
e ||—————————————||
B | | – 20p12h15-20p12h15-20p12h15-20p12h15 – | |
G ||—————————————||

Kunci

finger tapping

Anda menggunakan tangan kanan Anda untuk menyerang ke-19 dan 20 frets dan tangan kiri Anda untuk hammer pada fret ke-15. lanjuuuuuuuuutttt frend

Sweep Picking

mungkin teknik ini  yang paling sulit dari teknik untuk sempurna, bahkan aku tak bisa melakukannya dengan sempurna , Aku akan memberi tahu Anda apa yang saya tahu dan menambahkan beberapa tips aku telah diberitahu ini.
Nah, bagian tersulit dari ini adalah mendapatkan kedua tangannya disinkronisasikan dan bergerak dengan kecepatan yang sama. Tangan yang memetik perlu jalankan di atasenar  cepat. Tangan kiri juga perlu roll di fretboard pada waktunya dengan petikan tangan anda :

contoh  TAB

V V V ^ ^ V V V ^ ^ V
e ||—— 12 —— 12 —— 12 – | |
B ||—- 12-12 – 12 – 12-12 —-||
G | | – 12 —— 12 —— 12 ——||
D ||————————–||
A||————————–||
E ||————————–||

Kunci
V – Downstroke
^ – Upstroke

Setelah Anda dapat bermain cukup baik i dan pada kecepatan yang masuk akal maka kita yang mulai bergerak pada hal-hal yang lebih besar. Mari kita coba-hammer di tengah-tengah sweep .

contoh

V V V V ^ ^ V V V V ^ ^
e ||——— 12H16P12 ———— 12H16P12 —— | |
B ||——- 12——– 12——– 12——– 12 —-||
G | | – 16-12———– -12-16-12 ———— 12 – | |
D ||——————————————-||
A||——————————————-||
E ||——————————————-||

Setelah Anda LANCAR, Anda dapat memperluas sweep di sebagian besar string,
V V V V V V ^ ^ ^ ^ ^ V V V V V ^
e ||————- 13H17P13 ——————– 13H17P13 —- | |
B ||———– 15——– 15———– —– 15——– 15 – | |
||——— G 14———– ———— 14———– -14 —||
||——- D 15——– 15———– —– 15———– — —||
A | | – 12-16———– ——— 16-12-16 —————– – | |
E ||———————————————– ——||

nich buat kawan kawan metal ini nich harmonisasi kunci untuk aliran metal \m/

aku hampir lupa SORY …!!

Standar – E A D G B e
Setengah Langkah Down – D # G # C # F # A # D #
Drop D – D A d g b e
Drop C – C G C F A D
Drop B – B F # B E G # C #
Drop A – A E A D F # B

Untuk Drop A dan B disarankan untuk mendapatkan set string berat seperti ketika melonggarkan dapat mempengaruhi pemutaran mereka ketika distel kembali ke standar.

yach jadi skarang buat kawan kawan metal \m/  trus ibarkan bendera kegelapan bantai musik sayur frends okay

Slamat Mencoba !!!!!!!!!!!!

\m/ IS NEVER DIE \m/

GOD LUCK !!!!!!!!!!!!!!!!!!!!!!!!!!!!!!!!!!!!!!!!!!!!!!!!!!

ECONOMIC PICKING

Pendahuluan

Masalah.

Kebanyakan pemain gitar berpikir dasar kecepatan nyata fret yang baik pada  tangan (umumnya: tangan kiri) teknik. Jika tangan kiri Anda cepat, Anda akan bisa bermain cepat. Jadi, banyak pemain terutama melatih tangan kiri mereka, dan tangan kanan adalah jenis tertinggal.

Saya menyimpulkan bahwa seorang memetik teknik yang disebut “ekonomi memilih “( economic picking)  adalah yang terbaik dan tercepat untuk memilih gaya bermain anda . Aku menemukan pelajaran ini sangat informatif, karena saya sudah tahu apa yang sebenarnya memetik ekonomi.

Solution.

Saya telah mengumpulkan banyak informasi tersebartentang gitar , ditambah beberapa pengalaman saya sendiri dari yang terdahulu tentang  “economic picking “, dan keluar dari semua informasi ini saya telah membuat pelajaran ini, untuk semua pemain yang ingin bermain sangat cepat tetapi tidak tahu bagaimana! Percayalah, kemarin, saya adalah salah satu dari Anda.

Apa yang di ,maksud dengan economic picking

Seperti yang telah saya katakan, ekonomi picking adalah teknik memetik yang terbaik yang ada. Itu cepat, dan kelihatannya sangat baik kelihatannya sangat baik, dan itu memerlukan usaha yang sangat kecil (setelah Anda telah menguasainya tentu saja). Tapi untuk mengalami kenyamanan ekonomi memetik, Anda harus terlebih dahulu memahami konsep itu. Untuk menyimpan cerita panjang: memetik ekonomi adalah campuran dari pertama, alternatif memetik(alternate picking ), dan kedua, menyapu memetik(sweep picing) . Sekarang penjelasan dari kedua teknik:

1. Alternate picking.

Sebuah teknik dasar. Kebanyakan dari anda pemain akan terbiasa dengan hal itu (kecuali jika Anda masih menjadi pemain awal). Alternate picking berarti: terus beralih antara turun-dan memilih upstrokes dengan Anda (untuk membuat segalanya lebih mudah: down-up-down-up-down-up-…)

2. Sweep Picking.

Ini adalah teknik yang lebih maju, yang digunakan untuk bermain gitar  yang artinya  “menyapu” Anda memilih atas senar, seolah-olah Anda sedang memetik sebuah akord, tetapi Anda tidak membiarkan  seolah-olah Anda sedang memainkan akord.

Sekarang Anda tahu kedua teknik, Anda bisa mengajukan pertanyaan: bagaimana memetik ekonomi terkait dengan teknik ini? Untuk menjawab pertanyaan ini, saya akan menggunakan latihan kecil sebagai contoh. Pertama, saya akan menunjukkan kepada Anda bagaimana pola ini akan di mainkan  jika Anda menggunakan memilih alternatif (seperti kebanyakan pemain gitar).

d = down stroke ( ke bawah )
u = up stroke ( ke atas )
   d u d u d u d u d u d u d u d u d u
E |------------------------------- 0-0-0 - |
B |------------------------- 0-0-0 -------|
G |------------------- 0-0-0 -------------|
D |------------- 0-0-0 -------------------|
A |------- 0-0-0 -------------------------|
E | -0-0-0 -------------------------------|

Anda dapat melihat dengan jelas, Anda terus-menerus bergantian antara bawah dan upstrokes. Sekarang aku akan menunjukkan pola yang sama, dimainkan dengan memetik ekonomi:

  

 d u u d d d d u u d d d d d d u u d 

E |------------------------------- 0-0-0 - |
B |------------------------- 0-0-0 -------|
G |------------------- 0-0-0 -------------|
D |------------- 0-0-0 -------------------|
A |------- 0-0-0 -------------------------|
E | -0-0-0 -------------------------------|

Seperti memilih alternatif, ekonomi memetik terdiri dari bolak turun-dan up strokes, kecuali ketika mengubah string. menggunakan “sweeping” gerak untuk hal ini: jika Anda memindahkan string ke bawah (misalnya dari ke-6 ke-5 string), Anda gunakan ke bawah (untuk gerakan menyapu, menggunakan gerakan pergelangan tangan Anda) Ã ¾ Jika bergerak naik, Anda menggunakan semua up strokes , seperti ini:

 



u d u u d u u d u u d u u d u u d u
E|-0-0-0-------------------------------|
B|-------0-0-0-------------------------|
G|-------------0-0-0-------------------|
D|-------------------0-0-0-------------|
A|-------------------------0-0-0-------|
E|-------------------------------0-0-0-|

Berlatihlah seperti ini sebanyak yang Anda bisa, dan mencoba untuk memainkan not yang bahkan mungkin menyatu dengan teknik anda . Banyak pemain yang mulai berlatih memetik ekonomi mengeluh bahwa catatan suara yang tidak merata atau tidak berjalan lebih cepat daripada memetik alternatif. Percayalah, itu tidak. Anda hanya harus menguasai dengan benar untuk bermain bahkan dan cepat (tidak pergi dan mencoba menguasainya dalam satu minggu seperti aku! Aku tidak ingin menyombongkan diri tetapi saya biasanya memahamkan hal yang sangat cepat, sehingga mengambil waktu . Cobalah untuk melakukannya dengan benar daripada mencoba untuk melakukannya dengan cepat).

Latihan

Sekarang Anda tahu apa yang memetik ekonomi, Anda dapat ambil gitar dan mulai berolahraga. Aku tidak suka melakukan latihan sendiri, tapi aku tetap melakukannya. Dan itulah yang harus Anda lakukan, jika Anda ingin menguasai perekonomian memetik dan bermain sangat cepat di real mudah! Saya akan memberikan beberapa latihan sebagai contoh, tetapi tentunya Anda bisa menciptakan latihan anda sendiri jika Anda inginkan! Atau memutar lagu-lagu yang ada sebagai latihan (seperti biasanya saya lakukan).

Latihan Set # 1

 



d u d d u d d u d d u d d u d d u d
E|-------------------------------0-0-0-|
B|-------------------------0-0-0-------|
G|-------------------0-0-0-------------|
D|-------------0-0-0-------------------|
A|-------0-0-0-------------------------|
E|-0-0-0-------------------------------|







 u d u u d u u d u u d u u d u u d u
E|-0-0-0-------------------------------|
B|-------0-0-0-------------------------|
G|-------------0-0-0-------------------|
D|-------------------0-0-0-------------|
A|-------------------------0-0-0-------|
E|-------------------------------0-0-0-|

Ini adalah pola yang saya gunakan di atas. Saya ulangi karena mereka penting: sebelum bermain sesuatu dengan cepat, gunakan latihan-latihan ini (dan latihan di bawah ini) sebagai pemanasan! Anda harus menggunakan Set Latihan 1 untuk melatih kecepatan, dan untuk memainkan setiap not merata dan lancar.

Latihan Set # 2

  

 d u d d u d d u d d u d d u d d u d
E|-------------------------------5-6-5-|
B|-------------------------5-6-5-------|
G|-------------------5-6-5-------------|
D|-------------5-6-5-------------------|
A|-------5-6-5-------------------------|
E|-5-6-5-------------------------------|


  u d u u d u u d u u d u u d u u d u
E|-5-6-5-------------------------------|
B|-------5-6-5-------------------------|
G|-------------5-6-5-------------------|
D|-------------------5-6-5-------------|
A|-------------------------5-6-5-------|
E|-------------------------------5-6-5-|


 d u d d u d d u d d u d d u d d u d
E|-------------------------------5-7-5-|
B|-------------------------5-7-5-------|
G|-------------------5-7-5-------------|
D|-------------5-7-5-------------------|
A|-------5-7-5-------------------------|
E|-5-7-5-------------------------------|


u d u u d u u d u u d u u d u u d u
E|-5-7-5-------------------------------|
B|-------5-7-5-------------------------|
G|-------------5-7-5-------------------|
D|-------------------5-7-5-------------|
A|-------------------------5-7-5-------|
E|-------------------------------5-7-5-|


   d u d d u d d u d d u d d u d d u d
E|-------------------------------5-8-5-|
B|-------------------------5-8-5-------|
G|-------------------5-8-5-------------|
D|-------------5-8-5-------------------|
A|-------5-8-5-------------------------|
E|-5-8-5-------------------------------|

   


   u d u u d u u d u u d u u d u u d u
E|-5-8-5-------------------------------|
B|-------5-8-5-------------------------|
G|-------------5-8-5-------------------|
D|-------------------5-8-5-------------|
A|-------------------------5-8-5-------|
E|-------------------------------5-8-5-|
Latihan-latihan ini didasarkan pada latihan pertama , tapi saya menambahkan jari tangan kiri juga. Oleh karena itu digunakan untuk melatih gerakan sinkron dan memilih tangan. Hal ini sangat penting jika anda ingin bermain cepat! Lakukan latihan ini setiap hari!

Catatan:

Anda mungkin telah memperhatikan bahwa dalam setiap latihan, terdapat 3 catatan per string. Hal ini karena memetik ekonomi lebih mudah ketika bermain ganjil catatan per string. Ketika Anda harus bermain bahkan sejumlah catatan, gunakan 1 (atau 3, atau 5, …) palu Firefox (hamer on) atau tarik-off (pull off) sehingga Anda harus melakukan ganjil picks. Contoh:

H = Hammer-on

P = pull-off

 
d u d H d u d H d u d H d u d H d u d H d u d H
E|-----------------------------------------5-6-5-6-|
B|---------------------------------5-6-5-6---------|
G|-------------------------5-6-5-6-----------------|
D|-----------------5-6-5-6-------------------------|
A|---------5-6-5-6---------------------------------|
E|-5-6-5-6-----------------------------------------|

   d u d P d u d P d u d P d u d P d u d P d u d P
E|-----------------------------------------6-5-6-5-|
B|---------------------------------6-5-6-5---------|
G|-------------------------6-5-6-5-----------------|
D|-----------------6-5-6-5-------------------------|
A|---------6-5-6-5---------------------------------|
E|-6-5-6-5-----------------------------------------|

Jadi, dalam dua latihan ini, terdapat 4 catatan per string, tapi Anda hanya 3 picks per string, dan 1 hammer-on/pull-off.

Speed

Ekonomi picking merupakan faktor kunci kecepatan. Tapi tetap saja, ada pemain gitar menggunakan ekonomi yang masih tidak dapat bermain cepat. Kenapa? Apakah karena tangan kiri yang lambat? Atau masih ada masalah dengan teknik memilih mereka? Seperti sudah saya bilang, tangan kiri biasanya lebih cepat. Anda dapat mencoba ini sendiri: memberikan lengan kanan Anda istirahat, dan hanya menggunakan tangan kiri Anda. Cobalah untuk memainkan riff gitar yang cepat (misalnya, skala besar, ) hanya dengan tangan kiri. Anda tidak perlu mendengar catatan: hanya mencoba untuk mendapatkan fingerings (Jari) tangan kiri kanan. Itu jauh lebih cepat daripada Anda akan dapat bermain dengan kedua tangan, bukan? Ini berarti, masih ada masalah dengan tangan kanan memetik teknik. Aku akan menjelaskan masalah ini dalam bagian berikut.

Pick yang di pilih untuk economic picking dan cara menggunakannya

Yang di pilih adalah sekitar 3 cm dan 2, 5 cm lebar. Anda Saya rasa banyak orang yang bergulingan di lantai sambil tertawa saat mereka membaca ini. Aku tahu, ini adalah dasar dari semua dasar-dasar, tetapi masih ada lagi. Anda tahu bahwa Anda harus memilih dengan tepi tajam tetapi apakah Anda tahu apa bagian dari economic pickng benar-benar menyentuh tali, dalam rangka untuk mencapai kecepatan maksimal? Caranya adalah dengan menyentuh senar dengan ujung pick. Maksudku, yang sangat ujung pick. Hanya sedikit sentuhan string dengan memilih cukup untuk menghasilkan suara yang jelas. Kebanyakan pemain benar-benar “memetik” senar dengan memilih seperti yang saya sebutkan ,dan untuk brerlatih teknik ini ., Anda akan menemukan benang halus ini menyentuh lebih mudah dan permainan anda akan bersih !

Mengetahui hal ini, dan menggabungkan dengan economic picking , memungkinkan Anda untuk bermain sangat cepat! Ekonomi didasarkan pada gerakan tangan kanan halus, tetapi jika Anda “mencabut” string Anda bukan hanya sedikit menyentuh mereka, gerakan halus ini adalah mustahil. Jadi, santai, sedikit untk sentuhan string Anda bukan memetik mereka, dan Anda akan bermain cepat dalam waktu singkat!

Pilih sudut pick

Ketika memilih alternatif, pilihan berdiri lurus ke atas (dilihat dari permukaan tubuh gitar). Tapi ketika “sweeping” atas atau bawah, Anda harus memilih akan diadakan di sudut tertentu, sehingga Anda tidak “memetik” tali seperti yang telah saya tadi jelaskan pada bagian sebelumnya. Ketika bergerak ke bawah, tepi tajam harus memilih titik sedikit ke atas. Ketika bergerak ke atas, tepi tajam harus memilih titik sedikit ke bawah. Untuk terus menjemput Anda di sebuah sudut, menggunakan gerakan pergelangan tangan Anda.

Mengapa? Nah, jika Anda terus memilih Anda di sudut digambarkan sementara bergerak di atas senar, Anda ” melangkah ” bukan memetik mereka, sehingga gerakan yang lebih halus. Dan seperti Aku sudah berkata: economic picking didasarkan pada yang halus gerakan tangan kanan.

Catatan:

Ketika bergerak naik, tepi tajam Anda harus memilih titik bawah. Ini mungkin merasa tidak nyaman untuk pergelangan tangan Anda pada awalnya, tetapi setelah beberapa latihan senam jari  seharusnya tidak menjadi masalah.

TUGAS :

Sebagai kesimpulan, aku akan membiarkan Anda memainkannya

E|----------------------------------|----------------------------------|
B|----------------------------------|----------------------------------|
G|----------------------3-2---------|----------------------5-4---------|
D|----2-5-3-2---------2-----5-3-2---|----3-7-5-3---------4-----7-5-4---|
A|--3---------5-3-2-4-------------4-|--5---------7-5-4-6-------------6-|
E|----------------------------------|----------------------------------|


|----------------------------------|---------------------------------------|
|----------------------------------|---------------------------------------|
|----------------------7-6---------|-------------------------9-8-----------|
|----6-9-7-6---------6-----9-7-6---|----7-11-9-7-----------8-----11-9-8----|
|--7---------9-7-6-8-------------8-|--9----------11-9-8-10--------------10-|
|----------------------------------|---------------------------------------|


|--------------------------------------------------|
|--------------------------------------------------|
|--------------------------------11-10-------------|
|-----10-13-11-10-------------10-------13-11-10----|
|--11-------------13-11-10-12-------------------12-|
|--------------------------------------------------|


|--------------------------------------------------|------------|
|--------------------------------------------------|------------|
|--------------------------------13-12-------------|------------|
|-----11-15-13-11-------------12-------15-13-12----|------------|
|--13-------------15-13-12-14-------------------14-|-15~--------|
|--------------------------------------------------|------------|

Catatan:

Saya tidak menambahkan fingerings tangan kanan, Anda harus bisa menemukan sendiri sekarang!

Kesimpulan

Saya ingin mengucapkan terima kasih kepada pemain yang telah membuat pelajaran sebelum saya; mereka telah mengajarkan saya banyak dan mereka membuat pelajaran ini mungkin. Untuk semua pemain yang telah belajar dari pelajaran ini: Saya berharap saya adalah beberapa pelajaran yang berguma  untuk kalian semua, dan saya berharap banyak orang akan belajar dari itu dan mungkin menulis pelajaran mereka sendiri tentang itu suatu hari nanti!

SELAMAT MENCOBA !!

Good Luck   !!!!!!!!!!!!!!!!!!!!!!!!!!!!!!!!!!!!!!!!!!!